ISO-10303-21;
HEADER;
/* Generated by software containing ST-Developer
 * from STEP Tools, Inc. (www.steptools.com) 
 */

FILE_DESCRIPTION(
/* description */ (''),
/* implementation_level */ '2;1');

FILE_NAME(
/* name */ 'C:/Users/elahd/Downloads/F695 Bearing.step',
/* time_stamp */ '2019-03-19T12:48:20-04:00',
/* author */ ('elahd@elahd.com'),
/* organization */ (''),
/* preprocessor_version */ 'ST-DEVELOPER v17.2',
/* originating_system */ 'Autodesk Translation Framework v7.6.0.251',
/* authorisation */ '');

FILE_SCHEMA (('AUTOMOTIVE_DESIGN { 1 0 10303 214 3 1 1 }'));
ENDSEC;

DATA;
#10=MECHANICAL_DESIGN_GEOMETRIC_PRESENTATION_REPRESENTATION('',(#37,#38,
#39,#40,#41),#545);
#11=SHAPE_REPRESENTATION_RELATIONSHIP('SRR','None',#552,#12);
#12=ADVANCED_BREP_SHAPE_REPRESENTATION('',(#13),#544);
#13=MANIFOLD_SOLID_BREP('Body1',#298);
#14=TOROIDAL_SURFACE('',#321,4.79289321881345,0.75);
#15=FACE_BOUND('',#67,.T.);
#16=FACE_BOUND('',#69,.T.);
#17=FACE_BOUND('',#72,.T.);
#18=FACE_BOUND('',#75,.T.);
#19=FACE_BOUND('',#77,.T.);
#20=FACE_BOUND('',#81,.T.);
#21=FACE_BOUND('',#85,.T.);
#22=FACE_BOUND('',#87,.T.);
#23=FACE_BOUND('',#90,.T.);
#24=FACE_BOUND('',#94,.T.);
#25=FACE_BOUND('',#96,.T.);
#26=PLANE('',#318);
#27=PLANE('',#319);
#28=PLANE('',#325);
#29=PLANE('',#330);
#30=PLANE('',#331);
#31=PLANE('',#338);
#32=PLANE('',#344);
#33=PLANE('',#345);
#34=PLANE('',#349);
#35=PLANE('',#356);
#36=PLANE('',#357);
#37=STYLED_ITEM('',(#563),#278);
#38=STYLED_ITEM('',(#563),#280);
#39=STYLED_ITEM('',(#563),#281);
#40=STYLED_ITEM('',(#564),#292);
#41=STYLED_ITEM('',(#562),#13);
#42=FACE_OUTER_BOUND('',#64,.T.);
#43=FACE_OUTER_BOUND('',#65,.T.);
#44=FACE_OUTER_BOUND('',#66,.T.);
#45=FACE_OUTER_BOUND('',#68,.T.);
#46=FACE_OUTER_BOUND('',#70,.T.);
#47=FACE_OUTER_BOUND('',#71,.T.);
#48=FACE_OUTER_BOUND('',#73,.T.);
#49=FACE_OUTER_BOUND('',#74,.T.);
#50=FACE_OUTER_BOUND('',#76,.T.);
#51=FACE_OUTER_BOUND('',#78,.T.);
#52=FACE_OUTER_BOUND('',#79,.T.);
#53=FACE_OUTER_BOUND('',#80,.T.);
#54=FACE_OUTER_BOUND('',#82,.T.);
#55=FACE_OUTER_BOUND('',#83,.T.);
#56=FACE_OUTER_BOUND('',#84,.T.);
#57=FACE_OUTER_BOUND('',#86,.T.);
#58=FACE_OUTER_BOUND('',#88,.T.);
#59=FACE_OUTER_BOUND('',#89,.T.);
#60=FACE_OUTER_BOUND('',#91,.T.);
#61=FACE_OUTER_BOUND('',#92,.T.);
#62=FACE_OUTER_BOUND('',#93,.T.);
#63=FACE_OUTER_BOUND('',#95,.T.);
#64=EDGE_LOOP('',(#198,#199,#200,#201));
#65=EDGE_LOOP('',(#202,#203,#204,#205));
#66=EDGE_LOOP('',(#206));
#67=EDGE_LOOP('',(#207));
#68=EDGE_LOOP('',(#208));
#69=EDGE_LOOP('',(#209));
#70=EDGE_LOOP('',(#210,#211,#212,#213));
#71=EDGE_LOOP('',(#214));
#72=EDGE_LOOP('',(#215));
#73=EDGE_LOOP('',(#216,#217,#218,#219));
#74=EDGE_LOOP('',(#220));
#75=EDGE_LOOP('',(#221));
#76=EDGE_LOOP('',(#222));
#77=EDGE_LOOP('',(#223));
#78=EDGE_LOOP('',(#224,#225,#226,#227));
#79=EDGE_LOOP('',(#228,#229,#230,#231));
#80=EDGE_LOOP('',(#232));
#81=EDGE_LOOP('',(#233));
#82=EDGE_LOOP('',(#234,#235,#236,#237));
#83=EDGE_LOOP('',(#238,#239,#240,#241));
#84=EDGE_LOOP('',(#242));
#85=EDGE_LOOP('',(#243));
#86=EDGE_LOOP('',(#244));
#87=EDGE_LOOP('',(#245));
#88=EDGE_LOOP('',(#246,#247,#248,#249));
#89=EDGE_LOOP('',(#250));
#90=EDGE_LOOP('',(#251,#252));
#91=EDGE_LOOP('',(#253,#254,#255,#256,#257));
#92=EDGE_LOOP('',(#258,#259,#260,#261));
#93=EDGE_LOOP('',(#262));
#94=EDGE_LOOP('',(#263));
#95=EDGE_LOOP('',(#264));
#96=EDGE_LOOP('',(#265));
#97=LINE('',#467,#107);
#98=LINE('',#473,#108);
#99=LINE('',#492,#109);
#100=LINE('',#502,#110);
#101=LINE('',#506,#111);
#102=LINE('',#511,#112);
#103=LINE('',#517,#113);
#104=LINE('',#525,#114);
#105=LINE('',#534,#115);
#106=LINE('',#539,#116);
#107=VECTOR('',#364,3.00000004470348);
#108=VECTOR('',#371,6.);
#109=VECTOR('',#396,5.75);
#110=VECTOR('',#409,3.00000004470348);
#111=VECTOR('',#414,3.125);
#112=VECTOR('',#421,5.875);
#113=VECTOR('',#428,6.);
#114=VECTOR('',#439,6.5);
#115=VECTOR('',#450,2.5);
#116=VECTOR('',#457,7.5);
#117=CIRCLE('',#313,3.00000004470348);
#118=CIRCLE('',#314,3.00000004470348);
#119=CIRCLE('',#316,6.);
#120=CIRCLE('',#317,6.);
#121=CIRCLE('',#320,7.5);
#122=CIRCLE('',#322,4.79289321881345);
#123=CIRCLE('',#323,0.75);
#124=CIRCLE('',#324,5.5);
#125=CIRCLE('',#326,3.125);
#126=CIRCLE('',#328,5.75);
#127=CIRCLE('',#329,5.75);
#128=CIRCLE('',#332,5.875);
#129=CIRCLE('',#334,3.00000004470348);
#130=CIRCLE('',#335,3.00000004470348);
#131=CIRCLE('',#337,3.125);
#132=CIRCLE('',#340,5.875);
#133=CIRCLE('',#342,6.);
#134=CIRCLE('',#343,6.);
#135=CIRCLE('',#346,6.5);
#136=CIRCLE('',#348,6.5);
#137=CIRCLE('',#350,2.5);
#138=CIRCLE('',#351,2.5);
#139=CIRCLE('',#353,2.5);
#140=CIRCLE('',#355,7.5);
#141=VERTEX_POINT('',#464);
#142=VERTEX_POINT('',#466);
#143=VERTEX_POINT('',#470);
#144=VERTEX_POINT('',#472);
#145=VERTEX_POINT('',#477);
#146=VERTEX_POINT('',#480);
#147=VERTEX_POINT('',#482);
#148=VERTEX_POINT('',#486);
#149=VERTEX_POINT('',#489);
#150=VERTEX_POINT('',#491);
#151=VERTEX_POINT('',#496);
#152=VERTEX_POINT('',#499);
#153=VERTEX_POINT('',#501);
#154=VERTEX_POINT('',#505);
#155=VERTEX_POINT('',#510);
#156=VERTEX_POINT('',#514);
#157=VERTEX_POINT('',#516);
#158=VERTEX_POINT('',#521);
#159=VERTEX_POINT('',#524);
#160=VERTEX_POINT('',#528);
#161=VERTEX_POINT('',#529);
#162=VERTEX_POINT('',#533);
#163=VERTEX_POINT('',#537);
#164=EDGE_CURVE('',#141,#141,#117,.T.);
#165=EDGE_CURVE('',#141,#142,#97,.T.);
#166=EDGE_CURVE('',#142,#142,#118,.T.);
#167=EDGE_CURVE('',#143,#143,#119,.T.);
#168=EDGE_CURVE('',#143,#144,#98,.T.);
#169=EDGE_CURVE('',#144,#144,#120,.T.);
#170=EDGE_CURVE('',#145,#145,#121,.T.);
#171=EDGE_CURVE('',#146,#146,#122,.T.);
#172=EDGE_CURVE('',#146,#147,#123,.T.);
#173=EDGE_CURVE('',#147,#147,#124,.T.);
#174=EDGE_CURVE('',#148,#148,#125,.T.);
#175=EDGE_CURVE('',#149,#149,#126,.T.);
#176=EDGE_CURVE('',#149,#150,#99,.T.);
#177=EDGE_CURVE('',#150,#150,#127,.T.);
#178=EDGE_CURVE('',#151,#151,#128,.T.);
#179=EDGE_CURVE('',#152,#152,#129,.T.);
#180=EDGE_CURVE('',#152,#153,#100,.T.);
#181=EDGE_CURVE('',#153,#153,#130,.T.);
#182=EDGE_CURVE('',#148,#154,#101,.T.);
#183=EDGE_CURVE('',#154,#154,#131,.T.);
#184=EDGE_CURVE('',#151,#155,#102,.T.);
#185=EDGE_CURVE('',#155,#155,#132,.T.);
#186=EDGE_CURVE('',#156,#156,#133,.T.);
#187=EDGE_CURVE('',#156,#157,#103,.T.);
#188=EDGE_CURVE('',#157,#157,#134,.T.);
#189=EDGE_CURVE('',#158,#158,#135,.T.);
#190=EDGE_CURVE('',#158,#159,#104,.T.);
#191=EDGE_CURVE('',#159,#159,#136,.T.);
#192=EDGE_CURVE('',#160,#161,#137,.T.);
#193=EDGE_CURVE('',#161,#160,#138,.T.);
#194=EDGE_CURVE('',#161,#162,#105,.T.);
#195=EDGE_CURVE('',#162,#162,#139,.T.);
#196=EDGE_CURVE('',#163,#163,#140,.T.);
#197=EDGE_CURVE('',#163,#145,#106,.T.);
#198=ORIENTED_EDGE('',*,*,#164,.F.);
#199=ORIENTED_EDGE('',*,*,#165,.T.);
#200=ORIENTED_EDGE('',*,*,#166,.T.);
#201=ORIENTED_EDGE('',*,*,#165,.F.);
#202=ORIENTED_EDGE('',*,*,#167,.F.);
#203=ORIENTED_EDGE('',*,*,#168,.T.);
#204=ORIENTED_EDGE('',*,*,#169,.T.);
#205=ORIENTED_EDGE('',*,*,#168,.F.);
#206=ORIENTED_EDGE('',*,*,#169,.F.);
#207=ORIENTED_EDGE('',*,*,#166,.F.);
#208=ORIENTED_EDGE('',*,*,#170,.F.);
#209=ORIENTED_EDGE('',*,*,#167,.T.);
#210=ORIENTED_EDGE('',*,*,#171,.T.);
#211=ORIENTED_EDGE('',*,*,#172,.T.);
#212=ORIENTED_EDGE('',*,*,#173,.T.);
#213=ORIENTED_EDGE('',*,*,#172,.F.);
#214=ORIENTED_EDGE('',*,*,#171,.F.);
#215=ORIENTED_EDGE('',*,*,#174,.F.);
#216=ORIENTED_EDGE('',*,*,#175,.T.);
#217=ORIENTED_EDGE('',*,*,#176,.T.);
#218=ORIENTED_EDGE('',*,*,#177,.T.);
#219=ORIENTED_EDGE('',*,*,#176,.F.);
#220=ORIENTED_EDGE('',*,*,#177,.F.);
#221=ORIENTED_EDGE('',*,*,#173,.F.);
#222=ORIENTED_EDGE('',*,*,#178,.F.);
#223=ORIENTED_EDGE('',*,*,#175,.F.);
#224=ORIENTED_EDGE('',*,*,#179,.F.);
#225=ORIENTED_EDGE('',*,*,#180,.T.);
#226=ORIENTED_EDGE('',*,*,#181,.T.);
#227=ORIENTED_EDGE('',*,*,#180,.F.);
#228=ORIENTED_EDGE('',*,*,#174,.T.);
#229=ORIENTED_EDGE('',*,*,#182,.T.);
#230=ORIENTED_EDGE('',*,*,#183,.T.);
#231=ORIENTED_EDGE('',*,*,#182,.F.);
#232=ORIENTED_EDGE('',*,*,#183,.F.);
#233=ORIENTED_EDGE('',*,*,#181,.F.);
#234=ORIENTED_EDGE('',*,*,#178,.T.);
#235=ORIENTED_EDGE('',*,*,#184,.T.);
#236=ORIENTED_EDGE('',*,*,#185,.T.);
#237=ORIENTED_EDGE('',*,*,#184,.F.);
#238=ORIENTED_EDGE('',*,*,#186,.F.);
#239=ORIENTED_EDGE('',*,*,#187,.T.);
#240=ORIENTED_EDGE('',*,*,#188,.T.);
#241=ORIENTED_EDGE('',*,*,#187,.F.);
#242=ORIENTED_EDGE('',*,*,#188,.F.);
#243=ORIENTED_EDGE('',*,*,#185,.F.);
#244=ORIENTED_EDGE('',*,*,#189,.T.);
#245=ORIENTED_EDGE('',*,*,#186,.T.);
#246=ORIENTED_EDGE('',*,*,#189,.F.);
#247=ORIENTED_EDGE('',*,*,#190,.T.);
#248=ORIENTED_EDGE('',*,*,#191,.F.);
#249=ORIENTED_EDGE('',*,*,#190,.F.);
#250=ORIENTED_EDGE('',*,*,#179,.T.);
#251=ORIENTED_EDGE('',*,*,#192,.T.);
#252=ORIENTED_EDGE('',*,*,#193,.T.);
#253=ORIENTED_EDGE('',*,*,#192,.F.);
#254=ORIENTED_EDGE('',*,*,#193,.F.);
#255=ORIENTED_EDGE('',*,*,#194,.T.);
#256=ORIENTED_EDGE('',*,*,#195,.T.);
#257=ORIENTED_EDGE('',*,*,#194,.F.);
#258=ORIENTED_EDGE('',*,*,#196,.F.);
#259=ORIENTED_EDGE('',*,*,#197,.T.);
#260=ORIENTED_EDGE('',*,*,#170,.T.);
#261=ORIENTED_EDGE('',*,*,#197,.F.);
#262=ORIENTED_EDGE('',*,*,#196,.T.);
#263=ORIENTED_EDGE('',*,*,#191,.T.);
#264=ORIENTED_EDGE('',*,*,#164,.T.);
#265=ORIENTED_EDGE('',*,*,#195,.F.);
#266=CYLINDRICAL_SURFACE('',#312,3.00000004470348);
#267=CYLINDRICAL_SURFACE('',#315,6.);
#268=CYLINDRICAL_SURFACE('',#327,5.75);
#269=CYLINDRICAL_SURFACE('',#333,3.00000004470348);
#270=CYLINDRICAL_SURFACE('',#336,3.125);
#271=CYLINDRICAL_SURFACE('',#339,5.875);
#272=CYLINDRICAL_SURFACE('',#341,6.);
#273=CYLINDRICAL_SURFACE('',#347,6.5);
#274=CYLINDRICAL_SURFACE('',#352,2.5);
#275=CYLINDRICAL_SURFACE('',#354,7.5);
#276=ADVANCED_FACE('',(#42),#266,.T.);
#277=ADVANCED_FACE('',(#43),#267,.F.);
#278=ADVANCED_FACE('',(#44,#15),#26,.T.);
#279=ADVANCED_FACE('',(#45,#16),#27,.F.);
#280=ADVANCED_FACE('',(#46),#14,.T.);
#281=ADVANCED_FACE('',(#47,#17),#28,.T.);
#282=ADVANCED_FACE('',(#48),#268,.F.);
#283=ADVANCED_FACE('',(#49,#18),#29,.T.);
#284=ADVANCED_FACE('',(#50,#19),#30,.T.);
#285=ADVANCED_FACE('',(#51),#269,.T.);
#286=ADVANCED_FACE('',(#52),#270,.F.);
#287=ADVANCED_FACE('',(#53,#20),#31,.T.);
#288=ADVANCED_FACE('',(#54),#271,.T.);
#289=ADVANCED_FACE('',(#55),#272,.F.);
#290=ADVANCED_FACE('',(#56,#21),#32,.T.);
#291=ADVANCED_FACE('',(#57,#22),#33,.T.);
#292=ADVANCED_FACE('',(#58),#273,.T.);
#293=ADVANCED_FACE('',(#59,#23),#34,.T.);
#294=ADVANCED_FACE('',(#60),#274,.F.);
#295=ADVANCED_FACE('',(#61),#275,.T.);
#296=ADVANCED_FACE('',(#62,#24),#35,.T.);
#297=ADVANCED_FACE('',(#63,#25),#36,.F.);
#298=CLOSED_SHELL('',(#276,#277,#278,#279,#280,#281,#282,#283,#284,#285,
#286,#287,#288,#289,#290,#291,#292,#293,#294,#295,#296,#297));
#299=DERIVED_UNIT_ELEMENT(#301,1.);
#300=DERIVED_UNIT_ELEMENT(#547,3.);
#301=(
MASS_UNIT()
NAMED_UNIT(*)
SI_UNIT(.KILO.,.GRAM.)
);
#302=DERIVED_UNIT((#299,#300));
#303=MEASURE_REPRESENTATION_ITEM('density measure',
POSITIVE_RATIO_MEASURE(7850.),#302);
#304=PROPERTY_DEFINITION_REPRESENTATION(#309,#306);
#305=PROPERTY_DEFINITION_REPRESENTATION(#310,#307);
#306=REPRESENTATION('material name',(#308),#544);
#307=REPRESENTATION('density',(#303),#544);
#308=DESCRIPTIVE_REPRESENTATION_ITEM('Steel','Steel');
#309=PROPERTY_DEFINITION('material property','material name',#554);
#310=PROPERTY_DEFINITION('material property','density of part',#554);
#311=AXIS2_PLACEMENT_3D('placement',#462,#358,#359);
#312=AXIS2_PLACEMENT_3D('',#463,#360,#361);
#313=AXIS2_PLACEMENT_3D('',#465,#362,#363);
#314=AXIS2_PLACEMENT_3D('',#468,#365,#366);
#315=AXIS2_PLACEMENT_3D('',#469,#367,#368);
#316=AXIS2_PLACEMENT_3D('',#471,#369,#370);
#317=AXIS2_PLACEMENT_3D('',#474,#372,#373);
#318=AXIS2_PLACEMENT_3D('',#475,#374,#375);
#319=AXIS2_PLACEMENT_3D('',#476,#376,#377);
#320=AXIS2_PLACEMENT_3D('',#478,#378,#379);
#321=AXIS2_PLACEMENT_3D('',#479,#380,#381);
#322=AXIS2_PLACEMENT_3D('',#481,#382,#383);
#323=AXIS2_PLACEMENT_3D('',#483,#384,#385);
#324=AXIS2_PLACEMENT_3D('',#484,#386,#387);
#325=AXIS2_PLACEMENT_3D('',#485,#388,#389);
#326=AXIS2_PLACEMENT_3D('',#487,#390,#391);
#327=AXIS2_PLACEMENT_3D('',#488,#392,#393);
#328=AXIS2_PLACEMENT_3D('',#490,#394,#395);
#329=AXIS2_PLACEMENT_3D('',#493,#397,#398);
#330=AXIS2_PLACEMENT_3D('',#494,#399,#400);
#331=AXIS2_PLACEMENT_3D('',#495,#401,#402);
#332=AXIS2_PLACEMENT_3D('',#497,#403,#404);
#333=AXIS2_PLACEMENT_3D('',#498,#405,#406);
#334=AXIS2_PLACEMENT_3D('',#500,#407,#408);
#335=AXIS2_PLACEMENT_3D('',#503,#410,#411);
#336=AXIS2_PLACEMENT_3D('',#504,#412,#413);
#337=AXIS2_PLACEMENT_3D('',#507,#415,#416);
#338=AXIS2_PLACEMENT_3D('',#508,#417,#418);
#339=AXIS2_PLACEMENT_3D('',#509,#419,#420);
#340=AXIS2_PLACEMENT_3D('',#512,#422,#423);
#341=AXIS2_PLACEMENT_3D('',#513,#424,#425);
#342=AXIS2_PLACEMENT_3D('',#515,#426,#427);
#343=AXIS2_PLACEMENT_3D('',#518,#429,#430);
#344=AXIS2_PLACEMENT_3D('',#519,#431,#432);
#345=AXIS2_PLACEMENT_3D('',#520,#433,#434);
#346=AXIS2_PLACEMENT_3D('',#522,#435,#436);
#347=AXIS2_PLACEMENT_3D('',#523,#437,#438);
#348=AXIS2_PLACEMENT_3D('',#526,#440,#441);
#349=AXIS2_PLACEMENT_3D('',#527,#442,#443);
#350=AXIS2_PLACEMENT_3D('',#530,#444,#445);
#351=AXIS2_PLACEMENT_3D('',#531,#446,#447);
#352=AXIS2_PLACEMENT_3D('',#532,#448,#449);
#353=AXIS2_PLACEMENT_3D('',#535,#451,#452);
#354=AXIS2_PLACEMENT_3D('',#536,#453,#454);
#355=AXIS2_PLACEMENT_3D('',#538,#455,#456);
#356=AXIS2_PLACEMENT_3D('',#540,#458,#459);
#357=AXIS2_PLACEMENT_3D('',#541,#460,#461);
#358=DIRECTION('axis',(0.,0.,1.));
#359=DIRECTION('refdir',(1.,0.,0.));
#360=DIRECTION('center_axis',(0.,1.,0.));
#361=DIRECTION('ref_axis',(1.,0.,0.));
#362=DIRECTION('center_axis',(0.,-1.,0.));
#363=DIRECTION('ref_axis',(1.,0.,0.));
#364=DIRECTION('',(0.,1.,0.));
#365=DIRECTION('center_axis',(0.,-1.,0.));
#366=DIRECTION('ref_axis',(1.,0.,0.));
#367=DIRECTION('center_axis',(0.,1.,0.));
#368=DIRECTION('ref_axis',(1.,0.,0.));
#369=DIRECTION('center_axis',(0.,1.,0.));
#370=DIRECTION('ref_axis',(1.,0.,0.));
#371=DIRECTION('',(0.,1.,0.));
#372=DIRECTION('center_axis',(0.,1.,0.));
#373=DIRECTION('ref_axis',(1.,0.,0.));
#374=DIRECTION('center_axis',(0.,-1.,0.));
#375=DIRECTION('ref_axis',(1.,0.,0.));
#376=DIRECTION('center_axis',(0.,1.,0.));
#377=DIRECTION('ref_axis',(1.,0.,0.));
#378=DIRECTION('center_axis',(0.,1.,0.));
#379=DIRECTION('ref_axis',(1.,0.,0.));
#380=DIRECTION('center_axis',(0.,1.,0.));
#381=DIRECTION('ref_axis',(1.,0.,0.));
#382=DIRECTION('center_axis',(0.,-1.,0.));
#383=DIRECTION('ref_axis',(1.,0.,0.));
#384=DIRECTION('center_axis',(-1.22464679914735E-16,0.,1.));
#385=DIRECTION('ref_axis',(-1.,0.,-1.22464679914735E-16));
#386=DIRECTION('center_axis',(0.,1.,0.));
#387=DIRECTION('ref_axis',(-1.,0.,0.));
#388=DIRECTION('center_axis',(0.,1.,0.));
#389=DIRECTION('ref_axis',(-1.,0.,0.));
#390=DIRECTION('center_axis',(0.,1.,0.));
#391=DIRECTION('ref_axis',(-1.,0.,0.));
#392=DIRECTION('center_axis',(0.,-1.,0.));
#393=DIRECTION('ref_axis',(-1.,0.,0.));
#394=DIRECTION('center_axis',(0.,1.,0.));
#395=DIRECTION('ref_axis',(-1.,0.,0.));
#396=DIRECTION('',(0.,-1.,0.));
#397=DIRECTION('center_axis',(0.,-1.,0.));
#398=DIRECTION('ref_axis',(-1.,0.,0.));
#399=DIRECTION('center_axis',(0.,1.,0.));
#400=DIRECTION('ref_axis',(-1.,0.,0.));
#401=DIRECTION('center_axis',(0.,1.,0.));
#402=DIRECTION('ref_axis',(-1.,0.,0.));
#403=DIRECTION('center_axis',(0.,-1.,0.));
#404=DIRECTION('ref_axis',(-1.,0.,0.));
#405=DIRECTION('center_axis',(0.,-1.,0.));
#406=DIRECTION('ref_axis',(-1.,0.,0.));
#407=DIRECTION('center_axis',(0.,1.,0.));
#408=DIRECTION('ref_axis',(-1.,0.,0.));
#409=DIRECTION('',(0.,-1.,0.));
#410=DIRECTION('center_axis',(0.,1.,0.));
#411=DIRECTION('ref_axis',(-1.,0.,0.));
#412=DIRECTION('center_axis',(0.,-1.,0.));
#413=DIRECTION('ref_axis',(-1.,0.,0.));
#414=DIRECTION('',(0.,-1.,0.));
#415=DIRECTION('center_axis',(0.,-1.,0.));
#416=DIRECTION('ref_axis',(-1.,0.,0.));
#417=DIRECTION('center_axis',(0.,1.,0.));
#418=DIRECTION('ref_axis',(-1.,0.,0.));
#419=DIRECTION('center_axis',(0.,-1.,0.));
#420=DIRECTION('ref_axis',(-1.,0.,0.));
#421=DIRECTION('',(0.,-1.,0.));
#422=DIRECTION('center_axis',(0.,1.,0.));
#423=DIRECTION('ref_axis',(-1.,0.,0.));
#424=DIRECTION('center_axis',(0.,-1.,0.));
#425=DIRECTION('ref_axis',(-1.,0.,0.));
#426=DIRECTION('center_axis',(0.,-1.,0.));
#427=DIRECTION('ref_axis',(-1.,0.,0.));
#428=DIRECTION('',(0.,-1.,0.));
#429=DIRECTION('center_axis',(0.,-1.,0.));
#430=DIRECTION('ref_axis',(-1.,0.,0.));
#431=DIRECTION('center_axis',(0.,1.,0.));
#432=DIRECTION('ref_axis',(-1.,0.,0.));
#433=DIRECTION('center_axis',(0.,1.,0.));
#434=DIRECTION('ref_axis',(-1.,0.,0.));
#435=DIRECTION('center_axis',(0.,1.,0.));
#436=DIRECTION('ref_axis',(-1.,0.,0.));
#437=DIRECTION('center_axis',(0.,1.,0.));
#438=DIRECTION('ref_axis',(-1.,0.,0.));
#439=DIRECTION('',(0.,-1.,0.));
#440=DIRECTION('center_axis',(0.,-1.,0.));
#441=DIRECTION('ref_axis',(-1.,0.,0.));
#442=DIRECTION('center_axis',(0.,1.,0.));
#443=DIRECTION('ref_axis',(-1.,0.,0.));
#444=DIRECTION('center_axis',(0.,-1.,0.));
#445=DIRECTION('ref_axis',(-1.,0.,0.));
#446=DIRECTION('center_axis',(0.,-1.,0.));
#447=DIRECTION('ref_axis',(-1.,0.,0.));
#448=DIRECTION('center_axis',(0.,1.,0.));
#449=DIRECTION('ref_axis',(1.,0.,0.));
#450=DIRECTION('',(0.,-1.,0.));
#451=DIRECTION('center_axis',(0.,-1.,0.));
#452=DIRECTION('ref_axis',(1.,0.,0.));
#453=DIRECTION('center_axis',(0.,1.,0.));
#454=DIRECTION('ref_axis',(1.,0.,0.));
#455=DIRECTION('center_axis',(0.,1.,0.));
#456=DIRECTION('ref_axis',(1.,0.,0.));
#457=DIRECTION('',(0.,-1.,0.));
#458=DIRECTION('center_axis',(0.,1.,0.));
#459=DIRECTION('ref_axis',(1.,0.,0.));
#460=DIRECTION('center_axis',(0.,1.,0.));
#461=DIRECTION('ref_axis',(1.,0.,0.));
#462=CARTESIAN_POINT('',(0.,0.,0.));
#463=CARTESIAN_POINT('Origin',(0.,0.,0.));
#464=CARTESIAN_POINT('',(-3.00000004470348,0.,-3.67394045218804E-16));
#465=CARTESIAN_POINT('Origin',(0.,0.,0.));
#466=CARTESIAN_POINT('',(-3.00000004470348,0.25,-3.67394045218804E-16));
#467=CARTESIAN_POINT('',(-3.00000004470348,0.,3.67394045218804E-16));
#468=CARTESIAN_POINT('Origin',(0.,0.25,0.));
#469=CARTESIAN_POINT('Origin',(0.,0.,0.));
#470=CARTESIAN_POINT('',(-6.,0.,-7.34788079488412E-16));
#471=CARTESIAN_POINT('Origin',(0.,0.,0.));
#472=CARTESIAN_POINT('',(-6.,0.25,-7.34788079488412E-16));
#473=CARTESIAN_POINT('',(-6.,0.,7.34788079488412E-16));
#474=CARTESIAN_POINT('Origin',(0.,0.25,0.));
#475=CARTESIAN_POINT('Origin',(0.,0.25,0.));
#476=CARTESIAN_POINT('Origin',(0.,0.,0.));
#477=CARTESIAN_POINT('',(-7.5,0.,9.18485099360515E-16));
#478=CARTESIAN_POINT('Origin',(0.,0.,0.));
#479=CARTESIAN_POINT('Origin',(0.,3.,0.));
#480=CARTESIAN_POINT('',(-4.79289321881345,3.75,-5.86960133907495E-16));
#481=CARTESIAN_POINT('Origin',(0.,3.75,0.));
#482=CARTESIAN_POINT('',(-5.5,3.25,-6.73555739531044E-16));
#483=CARTESIAN_POINT('Origin',(-4.79289321881345,3.,-5.86960133907495E-16));
#484=CARTESIAN_POINT('Origin',(0.,3.25,0.));
#485=CARTESIAN_POINT('Origin',(0.,3.75,0.));
#486=CARTESIAN_POINT('',(3.125,3.75,-3.82702124733548E-16));
#487=CARTESIAN_POINT('Origin',(0.,3.75,0.));
#488=CARTESIAN_POINT('Origin',(0.,4.,0.));
#489=CARTESIAN_POINT('',(5.75,3.5,-7.04171909509728E-16));
#490=CARTESIAN_POINT('Origin',(0.,3.5,0.));
#491=CARTESIAN_POINT('',(5.75,3.25,-7.04171909509728E-16));
#492=CARTESIAN_POINT('',(5.75,4.,7.04171909509728E-16));
#493=CARTESIAN_POINT('Origin',(0.,3.25,0.));
#494=CARTESIAN_POINT('Origin',(0.,3.25,0.));
#495=CARTESIAN_POINT('Origin',(0.,3.5,0.));
#496=CARTESIAN_POINT('',(5.875,3.5,-7.1947999449907E-16));
#497=CARTESIAN_POINT('Origin',(0.,3.5,0.));
#498=CARTESIAN_POINT('Origin',(0.,4.,0.));
#499=CARTESIAN_POINT('',(3.00000004470348,4.,-3.67394045218804E-16));
#500=CARTESIAN_POINT('Origin',(0.,4.,0.));
#501=CARTESIAN_POINT('',(3.00000004470348,1.,-3.67394045218804E-16));
#502=CARTESIAN_POINT('',(3.00000004470348,4.,3.67394045218804E-16));
#503=CARTESIAN_POINT('Origin',(0.,1.,0.));
#504=CARTESIAN_POINT('Origin',(0.,4.,0.));
#505=CARTESIAN_POINT('',(3.125,1.,-3.82702124733548E-16));
#506=CARTESIAN_POINT('',(3.125,4.,3.82702124733548E-16));
#507=CARTESIAN_POINT('Origin',(0.,1.,0.));
#508=CARTESIAN_POINT('Origin',(0.,1.,0.));
#509=CARTESIAN_POINT('Origin',(0.,4.,0.));
#510=CARTESIAN_POINT('',(5.875,1.,-7.1947999449907E-16));
#511=CARTESIAN_POINT('',(5.875,4.,7.1947999449907E-16));
#512=CARTESIAN_POINT('Origin',(0.,1.,0.));
#513=CARTESIAN_POINT('Origin',(0.,4.,0.));
#514=CARTESIAN_POINT('',(6.,4.,-7.34788079488412E-16));
#515=CARTESIAN_POINT('Origin',(0.,4.,0.));
#516=CARTESIAN_POINT('',(6.,1.,-7.34788079488412E-16));
#517=CARTESIAN_POINT('',(6.,4.,7.34788079488412E-16));
#518=CARTESIAN_POINT('Origin',(0.,1.,0.));
#519=CARTESIAN_POINT('Origin',(0.,1.,0.));
#520=CARTESIAN_POINT('Origin',(0.,4.,0.));
#521=CARTESIAN_POINT('',(6.5,4.,-7.9602041944578E-16));
#522=CARTESIAN_POINT('Origin',(0.,4.,0.));
#523=CARTESIAN_POINT('Origin',(0.,1.,0.));
#524=CARTESIAN_POINT('',(6.5,1.,-7.9602041944578E-16));
#525=CARTESIAN_POINT('',(6.5,1.,-7.9602041944578E-16));
#526=CARTESIAN_POINT('Origin',(0.,1.,0.));
#527=CARTESIAN_POINT('Origin',(0.,4.,0.));
#528=CARTESIAN_POINT('',(2.5,4.,-3.06161699786838E-16));
#529=CARTESIAN_POINT('',(-2.5,4.,3.06161699786838E-16));
#530=CARTESIAN_POINT('Origin',(0.,4.,0.));
#531=CARTESIAN_POINT('Origin',(0.,4.,0.));
#532=CARTESIAN_POINT('Origin',(0.,0.,0.));
#533=CARTESIAN_POINT('',(-2.5,0.,3.06161699786838E-16));
#534=CARTESIAN_POINT('',(-2.5,0.,3.06161699786838E-16));
#535=CARTESIAN_POINT('Origin',(0.,0.,0.));
#536=CARTESIAN_POINT('Origin',(0.,0.,0.));
#537=CARTESIAN_POINT('',(-7.5,1.,9.18485099360515E-16));
#538=CARTESIAN_POINT('Origin',(0.,1.,0.));
#539=CARTESIAN_POINT('',(-7.5,0.,9.18485099360515E-16));
#540=CARTESIAN_POINT('Origin',(0.,1.,0.));
#541=CARTESIAN_POINT('Origin',(0.,0.,0.));
#542=UNCERTAINTY_MEASURE_WITH_UNIT(LENGTH_MEASURE(0.01),#546,
'DISTANCE_ACCURACY_VALUE',
'Maximum model space distance between geometric entities at asserted c
onnectivities');
#543=UNCERTAINTY_MEASURE_WITH_UNIT(LENGTH_MEASURE(0.01),#546,
'DISTANCE_ACCURACY_VALUE',
'Maximum model space distance between geometric entities at asserted c
onnectivities');
#544=(
GEOMETRIC_REPRESENTATION_CONTEXT(3)
GLOBAL_UNCERTAINTY_ASSIGNED_CONTEXT((#542))
GLOBAL_UNIT_ASSIGNED_CONTEXT((#546,#548,#549))
REPRESENTATION_CONTEXT('','3D')
);
#545=(
GEOMETRIC_REPRESENTATION_CONTEXT(3)
GLOBAL_UNCERTAINTY_ASSIGNED_CONTEXT((#543))
GLOBAL_UNIT_ASSIGNED_CONTEXT((#546,#548,#549))
REPRESENTATION_CONTEXT('','3D')
);
#546=(
LENGTH_UNIT()
NAMED_UNIT(*)
SI_UNIT(.MILLI.,.METRE.)
);
#547=(
LENGTH_UNIT()
NAMED_UNIT(*)
SI_UNIT($,.METRE.)
);
#548=(
NAMED_UNIT(*)
PLANE_ANGLE_UNIT()
SI_UNIT($,.RADIAN.)
);
#549=(
NAMED_UNIT(*)
SI_UNIT($,.STERADIAN.)
SOLID_ANGLE_UNIT()
);
#550=SHAPE_DEFINITION_REPRESENTATION(#551,#552);
#551=PRODUCT_DEFINITION_SHAPE('',$,#554);
#552=SHAPE_REPRESENTATION('',(#311),#544);
#553=PRODUCT_DEFINITION_CONTEXT('part definition',#558,'design');
#554=PRODUCT_DEFINITION('F695 Bearing','F695 Bearing v2',#555,#553);
#555=PRODUCT_DEFINITION_FORMATION('',$,#560);
#556=PRODUCT_RELATED_PRODUCT_CATEGORY('F695 Bearing v2',
'F695 Bearing v2',(#560));
#557=APPLICATION_PROTOCOL_DEFINITION('international standard',
'automotive_design',2009,#558);
#558=APPLICATION_CONTEXT(
'Core Data for Automotive Mechanical Design Process');
#559=PRODUCT_CONTEXT('part definition',#558,'mechanical');
#560=PRODUCT('F695 Bearing','F695 Bearing v2',$,(#559));
#561=PRESENTATION_STYLE_ASSIGNMENT((#565));
#562=PRESENTATION_STYLE_ASSIGNMENT((#566));
#563=PRESENTATION_STYLE_ASSIGNMENT((#567));
#564=PRESENTATION_STYLE_ASSIGNMENT((#568));
#565=SURFACE_STYLE_USAGE(.BOTH.,#569);
#566=SURFACE_STYLE_USAGE(.BOTH.,#570);
#567=SURFACE_STYLE_USAGE(.BOTH.,#571);
#568=SURFACE_STYLE_USAGE(.BOTH.,#572);
#569=SURFACE_SIDE_STYLE('',(#573));
#570=SURFACE_SIDE_STYLE('',(#574));
#571=SURFACE_SIDE_STYLE('',(#575));
#572=SURFACE_SIDE_STYLE('',(#576));
#573=SURFACE_STYLE_FILL_AREA(#577);
#574=SURFACE_STYLE_FILL_AREA(#578);
#575=SURFACE_STYLE_FILL_AREA(#579);
#576=SURFACE_STYLE_FILL_AREA(#580);
#577=FILL_AREA_STYLE('Steel - Satin',(#581));
#578=FILL_AREA_STYLE('Stainless Steel - Satin',(#582));
#579=FILL_AREA_STYLE('Steel - Cast',(#583));
#580=FILL_AREA_STYLE('Stainless Steel - Polished',(#584));
#581=FILL_AREA_STYLE_COLOUR('Steel - Satin',#585);
#582=FILL_AREA_STYLE_COLOUR('Stainless Steel - Satin',#586);
#583=FILL_AREA_STYLE_COLOUR('Steel - Cast',#587);
#584=FILL_AREA_STYLE_COLOUR('Stainless Steel - Polished',#588);
#585=COLOUR_RGB('Steel - Satin',0.627450980392157,0.627450980392157,0.627450980392157);
#586=COLOUR_RGB('Stainless Steel - Satin',0.796078431372549,0.796078431372549,
0.796078431372549);
#587=COLOUR_RGB('Steel - Cast',0.627450980392157,0.627450980392157,0.627450980392157);
#588=COLOUR_RGB('Stainless Steel - Polished',0.796078431372549,0.796078431372549,
0.796078431372549);
ENDSEC;
END-ISO-10303-21;
